Pantera Artic Cat Triple 800

The Québec Redneck Bluegrass Project

Tablature et vidéo de "Pantera Artic Cat Triple 800" de The Québec Redneck Bluegrass Project

Pas de vidéo

Partiton de Pantera Artic Cat Triple 800


 ------------------------------------------------------------------------
  
 ------------------------------------------------------------------------
 Artiste : The Québec Redneck Bluegrass Project
 Titre   : Pantera Artic Cat Triple 800
 ------------------------------------------------------------------------ 

 Dm 
 Par un beau matin d'hiver
 C 
 Une belle couche de neige neuve su'es terres
 Dm 
 J'calle mon café chemineau, j'm'attrique chaud
 C 
 J'sors déhors illico...


 Dm 
 Et pis un, deux pis trois, quatre, cinq coups d'crinque
 C 
 Donnes-y du choke
                    Dm 
 Donnes-y du choke
                           C 
 Écoute ça décoller, chose
 G                           Dm 
 T'es jaloux Oh oui t'es jaloux


 Dm   C   G   Dm  (en boucle jusqu'à la fin)


 Avec ton sled de montagne de quatorze milles piaces
 Moé j'ai un Pantera Arctic Cat triple 800
 J'te pogne d'un drag n'importe quand
 Tu prônes que chez vous c'est Skidoo
 C'pac'que t'es jaloux!


 De mon Pantera Arctic Cat Triple 800
 Oh, j'te dis qu'ç'est pas gênant
 Trois beaux bâtons en d'sour du hood
 Dans l'doute le gaz au boutte


 Dans l'tapis dins trails, pas d'permis d'trails
 J'décide de sortir d'la track
 Ya rien à l'épreuve de mon Pantera
 C't'une machine de combat


 *Du moins c'est c'que j'veux crére
 Dans neige molle c'est 'a misére  (2X)


 Ma machine a marche, ma machine a torche
 Mais c'pas l'top dans neige folle
 Ma machine a marche, ma machine a torche
 Mais c'pas l'top dans neige folle
 Ma machine a marche, ma machine a torche
 J'te pogne d'un drag n'importe quand
 Ma machine a marche, ma machine a torche
 Tant qu'il aille pas trop d'poudre en avant


 *Quinze pouces de laye
 Dins trails ça fly, mais dans neige ça cale (2X)


 Envoye fourre, défourre
 Réguenne, déreguenne
 Pis crinque, ar'crinque
 Pis donnes-y du choke
 J'ai r'grette que d'une chose
 Mes raquettes et ma pelle
 On calle aux aisselles
 En d'ssour d'la croûte
 La neige est en sel


 Fourre, défourre
 Réguenne, déreguenne
 Pis cule, recule pis colle, décolle
 Déterre la laye tire su'es patins
 Au 'yabe, d'la marde, je r'viendrai d'main


 Fourre, défourre, fourre, défourre

E|-17-12----------13-12-10-12-|-17-12----------13-12-10-13-12-10-|-17-12----------13-12-10-12-|
B|-------15----15-------------|-------15----15-------------------|-------15----15-------------|
G|----------14----------------|----------14----------------------|----------14----------------|
D|----------------------------|----------------------------------|----------------------------|
A|----------------------------|----------------------------------|----------------------------|
E|----------------------------|----------------------------------|----------------------------|

E|-17-12----------------------|---------------------------------------|----------------------------|
B|-------15-------------------|---------------------------------------|----------------------------|
G|----------14-12-10-14-12-10-|----10-12-14-12-10-14-12-10------------|-------10-12-14-15-14-12-14-|
D|----------------------------|-14-------------------------14-12-10-12|-10-12----------------------|
A|----------------------------|---------------------------------------|----------------------------|
E|----------------------------|---------------------------------------|----------------------------|

E|-------------------------------|-12h13-9h10----------|-------5-------------|
B|-------------------------------|------------10----10-|-5-6-8---8-6-5-------|
G|----10-12-14-12-10-------------|---------------10----|---------------7-5-7-|
D|-14----------------14-12-10-12-|---------------------|---------------------|
A|-------------------------------|---------------------|---------------------|
E|-------------------------------|---------------------|---------------------|

 J'ai sauté l'reculon ça recule p'us
 Toutes les impasses j'y tire su'l'cul
 Tout l'temps après tirer su'es patins
 C't'un ostie d'sous-marin


 J'f'rais pas guére long dans l'eau claire
 Dans neige molle c'est 'a même histoire
 Mais je l'pogne d'un drag su'a régionale
 Ton p'tit sled de montagne


 *Un 800 trois bâtons dans l'damé
 Ça goal, ça torche, ça veut tout arracher


 Spot la strap, pète le windshield,
 Ça fuck le chien mais ça veut vivre
 Du duck-tape pis d'la broche
 Collet, tie wrap, pis c'est dans poche


 Check ça filer comme l'étoile
 Ça laisse une trainée de boucane bleue
 Ça sent l'deux-temps, la strap brûlée
 Mais c'est comme neu'


 Refrain


 Tu t'lèves deboutte en chandelle
 Moé j'chill su'l cadi, j'fais pas d'zèle
 Un beau dossier pour les d'moiselles
 Poignées chauffantes pour pas qui gèlent
 Tu t'pognes le button en side hill
 Moi j'chauffe en bonhomme ben tranquille
 Une caisse de biére pis du tabac
 J'essaye de boire autant qu'mon Pantera


 *Ma machine a soif, ma machine a boit
 A boit quasiment plus que moi (4x)


                           C          G 
 Pis donnes-y du choke T'es jaloux


 Refrain


 G   Dm   G   Dm 
 Au yabe, d'la marde je r'viendrai d'main
 Au yabe, d'la marde je r'viendrai d'main
 Au yabe d'la marde
 Au yabe je r'viendrai d'main

 ------------------------------------------------------------------------ 
 Dernière modification : 2018-09-04
 Version : 1.1
FavoriteLoadingVotez pour cette tab en l'ajoutant à votre bloc favoris !
Pantera Artic Cat Triple 800 The Québec Redneck Bluegrass Project

Comments are closed.