Better Together

Jack Johnson

Tablature et vidéo de "Better Together" de Jack Johnson

Pas de vidéo

Partiton de Better Together


 ------------------------------------------------------------------------
  
 ------------------------------------------------------------------------
 Artiste : Jack Johnson
 Titre   : Better Together
 Paroles et musique : Jack Johnson
 ------------------------------------------------------------------------ 

 Intro`:
e|----------------------------------------------------------------------|
B|----------------------------------------------------------------------|
G|--------12-------10------7-----5-----7------10-------12-------10------|
D|--10/12----12/10----10/7---7/5---5/7---7/10----10/12----12/10----10---|
A|----------------------------------------------------------------------|
E|----------------------------------------------------------------------|


 F          F/E                       Dm                     C 
 There's no combination of words I could put on the back of a postcard
 Bb          Bb/A          Gm                 C 
 No song that I could sing But I can try for your heart
 F          F/E                Dm               C 
 Our dreams, and they are made out of real things
 Bb          Bb/A          Gm                 C 
 Like a, shoebox of photographs With sepiatone loving
 F              F/E                   Dm                   C 
 Love is the answer, At least for most of the questions in my heart
 Bb             Bb/A             Gm                         C 
 Like why are we here`? And where do we go`? and how come it's so hard`?
 F           F/E                Dm                   C 
 It's not always easy and Sometimes life can be deceiving
 Bb             Bb/A             Gm                         C 
 I'll tell you one thing it's always better when we're together


 [Refrain`:]
 Bb                                  C    C/B 
 MMM it's always better when we're together
 Bb                                  C    C/B 
 Yeah, we'll look at the stars when we're together
 Bb                                  C    C/B 
 Well, it's always better when we're together
 Bb                                  C    C/B 
 Yeah, it's always better when we're together


 And all of these moments Just might find their way into my dreams tonight
 But I know that they'll be gone When the morning light sings
 And brings new things For tomorrow night you see
 That they'll be gone too Too many things I have to do
 But if all of these dreams might find their way Into my day to day scene
 I'd be under the impression I was somewhere in between
 With only two Just me and you Not so many things we got to do
 Or places we got to be We'll Sit beneath the mango tree now


 [Refrain]


 MMmmmm MMMmmmm Mmmmmm
 Gm             C                   Gm                  C 
 I believe in memories They look so, so pretty when I sleep
 Gm               C                   Gm                     C 
 Hey now, and when I wake up,You look so pretty sleeping next to me
 Bb             C                   Bb                  C 
 But there is not enough time,And there is no, no song I could sing
 Bb             C                   Bb                  C 
 And there is no, combination of words I could say
 Bb          C                Bb               C 
 But I will still tell you one thing We're better together.


 Instrumental`:
e|-----------------------------------------------------------------------|
B|-----------------------------------------------------------------------|
G|---------12-------10------7-----5-----7------10-------12-------10------|
D|---10/12----12/10----10/7---7/5---5/7---7/10----10/12----12/10----10---|
A|-----------------------------------------------------------------------|
E|-----------------------------------------------------------------------|


e|---------13------10------8-----10-------13--------15-------13-----10---------|
B|---10/13----13/10----10/8--8/10----10/13----13/15-----15/13---13/10---10-8/6-|
G|-----------------------------------------------------------------------------|
D|-----------------------------------------------------------------------------|
A|-----------------------------------------------------------------------------|
E|-----------------------------------------------------------------------------|

 ------------------------------------------------------------------------ 
 Dernière modification : 2015-01-22
 Version : 1.0
FavoriteLoadingVotez pour cette tab en l'ajoutant à votre bloc favoris !
Better Together Jack Johnson

Comments are closed.