Lisa

Alain Souchon

Tablature et vidéo de "Lisa" de Alain Souchon


Partiton de Lisa


 Artiste : Alain Souchon
 Titre   : Lisa
 Paroles : Mireille Davidovici, Pierre Grillet
 Musique : Pierre Souchon, Julien Voulzy
 
Cours de guitare gratuits
 

 Intro :  C 


 C               F 
 Lisa, Lisa, Lisa
       G              C 
 Fais pas ta Mona Lisa
 C                      F 
 Pleure pas sur ta pizza
                  G            C 
 Parce que j'ai fais ma valisa


 F            G 
   Lisa, on s'écrira
 Am                E7 
 Puis on s'écrira pas
     Am      E7        F  /  G 
 Lisa, on s'oubliera
                   C 
 Ainsi va la vie Lisa


 C              F 
 Lisa, l'hôtel de la plage
       G                     C 
 A fermé, il faut plier bagage
 C          F 
 L'été est terminé
     G                 C 
 Et la boucle est bouclée


 F            G 
   Lisa, on s'écrira
 Am                E7 
 Puis on s'écrira pas
     Am      E7        F  /  G 
 Lisa, on s'oubliera
                    C 
 Ainsi va la vie Lisa


 Am         F 
    Lisa, Lisa, Lisa
 C                     G 
 Y'a tes grands yeux, Lisa
 Am                   F        C 
    La tristesse ne sied pas'#8230;
 G 
    Oh, Lisa...

   Am   F   C   G 
                Lisa  (x3)


 Am   F   C   G 


 Am        G 
    Lisa, on s'écrira
 Am                E7 
 Puis on s'écrira pas
     Am      E7        F  /  G 
 Lisa, on s'oubliera
                      C   E7 
 Ainsi va la vie Lisa


 Am        G 
    Lisa, on s'écrira
 Am                E7 
 Puis on s'écrira pas
     Am      E7        F  /  G 
 Lisa, on s'oubliera
                     C 
 Ainsi va la vie Lisa

 
Cours de guitare gratuits
 
 Dernière modification : 2009-04-09
 Version : 1.0
FavoriteLoadingVotez pour cette tab en l'ajoutant à votre bloc favoris !
Lisa Alain Souchon

Laisser un commentaire

Votre adresse de messagerie ne sera pas publiée. Les champs obligatoires sont indiqués avec *

Lisa

Francis Cabrel

Tablature et vidéo de "Lisa" de Francis Cabrel


Partiton de Lisa


 Artiste : Francis Cabrel
 Titre   : Lisa
 Paroles et musique : Francis Cabrel

 Capo III
 
Cours de guitare gratuits
 

Transcribed by Tony
Les noms d'accords correspondent aux positions de doigts
et pas au nom de l'accords avec capo. Je ne suis qu'un débutant,
mais j'en ai un peu marre de voir des partitions accords
sous le nom de tablatures, alors voilà.....
Bonne gratte!


  Dm               D(sus4)   Em7/C                  Cmaj7 
  
|-----1---1---|-----1---0---|-----0---0---|-----0---0---|
|-----3---3---|-----3---3---|-----1---1---|-----1---0---|
|---2---2---2-|---2---2---0-|---0---0---0-|---0---0---0-|
|-0-----------|-0-----------|-------------|-------------|
|-------------|-------------|-3-----------|-3-----------|
|-------------|-------------|-------------|-------------|


  Em                         G(sus4)        G 
 
|-----0---0---|-----0---0---|-----3-------|-------||
|-----0---0---|-----0---0---|-----3---3---|-3-----||
|---0---0---0-|---0---0---0-|---------5---|-4-----||
|-------------|-------------|---5---5---5-|-5-----||
|-------------|-------------|-------------|-------||
|-0-----------|-0-----------|-3-----------|-3-----||


    $
    Dm                          C 
    
||------1---1---|-----1---1---|-----0---0---|-----0---0---|
||o-----3---3---|-----3---3---|-----1---1---|-----1---1---|
||----2---2---2-|---2---2---2-|---0---0---0-|---0---0---0-|
||--0-----------|-0-----------|-------------|-------------|
||o-------------|-------------|-3-----------|-3-----------|
||--------------|-------------|-------------|-------------|


                                                 To Coda
  Em                          G 
 
|-----0---0---|-----0---0---|-----3---3---|-----3---3----||
|-----0---0---|-----0---0---|-----3---3---|-----3---3----||
|---0---0---0-|---0---0---0-|-------------|--------------||
|-------------|-------------|---5---5---5-|---5---5---5--||
|-------------|-------------|-------------|--------------||
|-0-----------|-0-----------|-3-----------|-3------------||


  Bb                          F 
  
|-----1---1---|-----1---1---|-----1---1---|-----1---1---|
|-----3---3---|-----3---3---|-----1---1---|-----1---1---|
|-------------|-------------|---2---2---2-|---2---2---2-|
|---3---3---3-|---3---3---3-|-------------|-------------|
|-1-----------|-1-----------|-------------|-------------|
|-------------|-------------|-1-----------|-1-----------|


  D             D/A           G 

|-----2---2---|-------------|-----3---3---|-----3---3---|
|-----3---3---|-----3---3---|-----3---3---|-----3---3---|
|---2---2---2-|-----2---2---|---2---2---2-|---2---2---2-|
|-0-----------|---0---0---0-|-------------|-------------|
|-------------|-0-----------|-------------|-------------|
|-------------|-------------|-3-----------|-3-----------|


  D             D/A           G 
 
|-----2---2---|-------------|-----3---3---|-----3---3---||
|-----3---3---|-----3---3---|-----3---3---|-----3---3---||
|---2---2---2-|-----2---2---|---2---2---2-|---2---2---2-||
|-0-----------|---0---0---0-|-------------|-------------||
|-------------|-0-----------|-------------|-------------||
|-------------|-------------|-3-----------|-3-----------||


  Dm                          C 
 
|-----1---1---|-----1---1---|-----0---0---|-----0---0---|
|-----3---3---|-----3---3---|-----1---1---|-----1---1---|
|---2---2---2-|---2---2---2-|---0---0---0-|---0---0---0-|
|-0-----------|-0-----------|-------------|-------------|
|-------------|-------------|-3-----------|-3-----------|
|-------------|-------------|-------------|-------------|


  Em                          G 
 
|-----0---0---|-----0---0---|-----3---3---|-----3---3---|
|-----0---0---|-----0---0---|-----3---3---|-----3---3---|
|---0---0---0-|---0---0---0-|-------------|-------------|
|-------------|-------------|---5---5---5-|---5---5---5-|
|-------------|-------------|-------------|-------------|
|-0-----------|-0-----------|-3-----------|-3-----------|


  Bb                          F 

|-----1---1---|-----1---1---|-----1---1---|-----1---1---|
|-----3---3---|-----3---3---|-----1---1---|-----1---1---|
|-------------|-------------|---2---2---2-|---2---2---2-|
|---3---3---3-|---3---3---3-|-------------|-------------|
|-1-----------|-1-----------|-------------|-------------|
|-------------|-------------|-1-----------|-1-----------|


  1.

  C             Am11          C     Am11    C 

|-----0---0---|-------------|-----0-------|--------||
|-----1---1---|-----3---3---|-----1---3---|-------o||
|---0---0---0-|-----5---5---|---0-----5---|--------||
|-------------|---5---5---5-|-------5---5-|--------||
|-3-----------|-0-----------|-3-----------|-3-----o||
|-------------|-------------|-------------|--------||


                              Refrain

  2.,3.

  F                            C 

|-----1---1---|-----1---1---||-----0---0---|-----0---0---|
|-----1---1---|-----1---1---||-----1---1---|-----1---1---|
|---2---2---2-|---2---2---2-||---0---0---0-|---0---0---0-|
|-------------|-------------||-------------|-------------|
|-------------|-------------||-3-----------|-3-----------|
|-1-----------|-1-----------||-------------|-------------|


  Em                          Am 

|-----0---0---|-----0---0---|-----0---0---|-----0---0---|
|-----0---0---|-----0---0---|-----1---1---|-----1---1---|
|---0---0---0-|---0---0---0-|---2---2---2-|---2---2---2-|
|-------------|-------------|-------------|-------------|
|-2-----------|-2-----------|-0-----------|-0-----------|
|-------------|-------------|-------------|-------------|


  G                           D 

|-----3---3---|-----3---3---|-----2---2---|-----2---2---|
|-----3---3---|-----3---3---|-----3---3---|-----3---3---|
|---2---2---2-|---2---2---2-|---2---2---2-|---2---2---2-|
|-------------|-------------|-0-----------|-0-----------|
|-------------|-------------|-------------|-------------|
|-3-----------|-3-----------|-------------|-------------|


  C/D                         A             A(add9) 

|-----0---0---|-----0---0---|-------------|-------------|
|-----1---1---|-----1---1---|-----2---2---|-----0---0---|
|---0---0---0-|---0---0---0-|-----2---2---|-----2---2---|
|-0-----------|-0-----------|---2---2---2-|---2---2---2-|
|-------------|-------------|-0-----------|-0-----------|
|-------------|-------------|-------------|-------------|


       D.S. al Coda

  A     A(add9)   A  

|-------------|--------||
|-----2---0---|--------||
|-----2---2---|--------||
|---2---2---2-|--------||
|-0-----------|-0------||
|-------------|--------||

  &
  Bb                          F(add9)                F 
 
|-------------|-------------|-------------|-------------|
|-----3---3---|-----3---3---|-------------|-------------|
|-----3---3---|-----3---3---|-----2---2---|-----2---2---|
|---3---3---3-|---3---3---3-|-----5---5---|-----3---3---|
|-1-----------|-1-----------|---3---3---3-|---3---3---3-|
|-------------|-------------|-1-----------|-1-----------|


 D(sus4)   D    D(sus4)   D     D(sus4)   D 
 
|-----0---2---|-----0---2---|-----0---2---|-^2-----*|
|-----3---3---|-----3---3---|-----3---3---|-^3-----*|
|---2---2---2-|---2---2---2-|---2---2---2-|-^2-----*|
|-0-----------|-0-----------|-0-----------|-^0-----*|
|-------------|-------------|-------------|--------*|
|-------------|-------------|-------------|--------*|



Misc Legend
-----------
 |  - bar
||  - double bar
||o - repeat start
o|| - repeat end
*|  - double bar (ending)
 :  - bar (freetime)
 $  - Segno
 &  - Coda

 
Cours de guitare gratuits
 
 Dernière modification : 2005-07-19
 Version : 1.0
FavoriteLoadingVotez pour cette tab en l'ajoutant à votre bloc favoris !
Lisa Francis Cabrel

Laisser un commentaire

Votre adresse de messagerie ne sera pas publiée. Les champs obligatoires sont indiqués avec *